Вторник, 25.06.2019, 14:32
Главная | Каталог статей | Регистрация | Вход
Приветствую Вас Панк прохожий | RSS
Меню сайта
Категории каталога
Пурген [27]
Каматоzz [7]
Бытовые паразиты [2]
Оргазм Нострадамуса [5]
Йорш [4]
DISTEMPER [10]
F.P.G [16]
Мини-чат
Главная » Статьи » Аккорды » DISTEMPER

DISTEMPER-Познание
G            H
Если ты хочешь идти по прямой
        C                D        D C H
Врядли ты сможешь вернуться домой
G           H            C         D C H 
Но   время научит искать свой путь
        G            H
Если ты хочешь ответить за всех
        C                D           D C H
Значит ты глуп ты лишь вызовешь смех
G      H          C        D
Все это тебе не дает уснуть


        G               H
Жизнь продолжается мчатся года
      C            D       D C H   
Много ошибок и много труда
    G                H            C         D C H
И выберет каждый уснуть(?) или бросить пить
        G                H
Если ты сможешь все сделать без слов
       C             D         D C H                
Если совсем не оставишь следов
G          H             C         D
То  опыт подскажет как дальше жить

Все это играется квинтами. Можно перекладывать эти аккорды на квинты как
угодно.


Можно так делать так (по-моему так правильней)
  G     H     C     D     D     C     H          
------------------------------------------          
------------------------------------------       
------------------------------------------
--------4-----5-----7-----7-----5-----4---
--5-----2-----3-----5-----5-----3-----2---
--3---------------------------------------
                               
а еще под нашу музыку можно делать вот так:                               
  G     H     C     D    C      H
-------------------------------------
-------------------------------------
--------------------7-----5-----4----
--------------------5-----3-----2----
--5-----9-----10---------------------
--3-----7-----8----------------------                               

а можно ваще вот так

G     H     C     D      D      C     H
-----------------------------------------------------
-----------------------------------------------------
-----------------------------------------------------
-----------------------------------------------------
-5-----9-----10----12-----12-----10----9-------------
-3-----7-----8-----10-----10-----8-----7-------------

а еще под нашу музыку можно много чего делать.
Категория: DISTEMPER | Добавил: pit (12.10.2008)
Просмотров: 280 | Рейтинг: 0.0/0 |
Всего комментариев: 0
Имя *:
Email *:
Код *:
Форма входа

Поиск
Друзья сайта


       
Статистика

Онлайн всего: 1
Гостей: 1
Пользователей: 0
Copyright MyCorp © 2019 Хостинг от uCoz