Вторник, 18.06.2019, 16:08
Главная | Каталог статей | Регистрация | Вход
Приветствую Вас Панк прохожий | RSS
Меню сайта
Категории каталога
Пурген [27]
Каматоzz [7]
Бытовые паразиты [2]
Оргазм Нострадамуса [5]
Йорш [4]
DISTEMPER [10]
F.P.G [16]
Мини-чат
Главная » Статьи » Аккорды » DISTEMPER

DISTEMPER-День Рождения
d|---2------
|-----3----
|---2------
|----------
|----------
|----------D                 hm|--2-------
|--2-3-----
|--2---4---
|--2---4---
|--2-------
|--2-------Hm
Пойду в сбербанк с лицом наивным,
    e|------------
|------------
|---1--------
|------2-----
|------2-----
|------------E          A
От стула ножку оторву
   d|---2------
|-----3----
|---2------
|----------
|----------
|----------D        a|----------
|---2------
|---2------
|---2------
|----------
|----------A     hm|--2-------
|--2-3-----
|--2---4---
|--2---4---
|--2-------
|--2-------Hm
И расхуячу все витрины,
    e|------------
|------------
|---1--------
|------2-----
|------2-----
|------------E                A
До смерти напугав толпу.
А в магазине, что напротив,
Я продовщицу молока
Лицом, напудренным как противень,
Об кассу постучу слегка.

Проигрыш: d|---2------
|-----3----
|---2------
|----------
|----------
|----------D hm|--2-------
|--2-3-----
|--2---4---
|--2---4---
|--2-------
|--2-------Hm e|------------
|------------
|---1--------
|------2-----
|------2-----
|------------E A

Потом переверну троллейбус,
Сломаю парочку столбов,
И пусть менты за мной приедут –
Сегодня я на всё готов.
С утра плохое настроенье,
Мне больше нечего терять,
Сегодня ведь мой день рождения,
А в гости некого позвать.

Проигрыш: g
|------3---
|----------
|----------
|----------
|----2-----
|------3---G em|-----------
|-----------
|-----------
|-----2-----
|-----2-----
|-----------
Em c|----------
|---1------
|----------
|-----2----
|-------3--
|-------3--C D
Категория: DISTEMPER | Добавил: pit (12.10.2008)
Просмотров: 337 | Рейтинг: 0.0/0 |
Всего комментариев: 0
Имя *:
Email *:
Код *:
Форма входа

Поиск
Друзья сайта


       
Статистика

Онлайн всего: 1
Гостей: 1
Пользователей: 0
Copyright MyCorp © 2019 Хостинг от uCoz