Среда, 26.06.2019, 15:16
Главная | Каталог статей | Регистрация | Вход
Приветствую Вас Панк прохожий | RSS
Меню сайта
Категории каталога
Пурген [27]
Каматоzz [7]
Бытовые паразиты [2]
Оргазм Нострадамуса [5]
Йорш [4]
DISTEMPER [10]
F.P.G [16]
Мини-чат
Главная » Статьи » Аккорды » F.P.G

F.P.G-Блядская
Em   |    H
        |
1|-7----|---7--------
2|-8----|---7--------
3|-9----|---8--------
4|-9----|---9--------
5|-7----|---9--------
6|-7----|---7--------
Em
Надменный жест, слащавый дух,
H
И драйв попсово-детский,
Em
И текст не тот, что режет слух,
H
А тот, что мягче теста.
Em
Завал поклонниц и бабла,
H
Но не за счет таланта.
Em
За счет смазливого ебла ,
H
Косящего под панка!

Em                 Am               H            Em
БлядСКАя музыка, БлядСКАя музыка, БлядСКАя музыка-а-а-а
Em                Am                H              Em
БлядСКАя музыка, БлядСКАя музыка, БлядСКАя музыка-а-а-а
solo1(?)
Сказка о счастье и любви, о бесконечном лете,
О безучастности в тени на самом лучшем свете.
Их песням не было б цены, будь в них хоть капля смысла.
Их понт, что это типа панк, наш понт, что это чисто!
БлядСКАя музыка, БлядСКАя музыка, БлядСКАя музыка-а-а-а
БлядСКАя музыка, БлядСКАя музыка, БлядСКАя музыка-а-а-а
solo2
2|---------------------------|--------------------------|
3|-9-9-9-9--7--------9--7----|-9-9-9-9--7---------------|
4|-------------10-7-------10-|------------10-7--5-7-5---|
5|---------------------------|------------------------7-|
6|---------------------------|--------------------------|
2|-------------------------|--10----------------------------|
3|-9-9-9-9--7--------------|-----9--7-----9~-9~-9~-9~-------|
4|-------------10-7--------|----------10--------------------|
5|-------------------------|--------------------------------|
6|-------------------------|--------------------------------|
2|---------------------------|--------------------------|
3|-9-9-9-9--7--------9--7----|-9-9-9-9--7---------------|
4|-------------10-7-------10-|------------10-7--5-7-5---|
5|---------------------------|------------------------7-|
6|---------------------------|--------------------------|
2|-------------------------|--10-----------------|
3|-9-9-9-9--7--------------|-----9--7------------|
4|-------------10-7--------|----------10--7------|
5|-------------------------|---------------------|
6|-------------------------|---------------------|
Не сложно знаменитым быть, идя блядям в угоды.
И, склеив ласты, тихо плыть на поводу у моды,
Кидая звёздные понты в толпе лохов ведомых,
Снимать смазливых потаскух, всегда визжать готовых!
БлядСКАя музыка, БлядСКАя музыка, БлядСКАя музыка-а-а-а
БлядСКАя музыка, БлядСКАя музыка, БлядСКАя музыка-а-а-а
Категория: F.P.G | Добавил: pit (12.10.2008)
Просмотров: 306 | Рейтинг: 0.0/0 |
Всего комментариев: 0
Имя *:
Email *:
Код *:
Форма входа

Поиск
Друзья сайта


       
Статистика

Онлайн всего: 1
Гостей: 1
Пользователей: 0
Copyright MyCorp © 2019 Хостинг от uCoz