Вторник, 25.06.2019, 15:03
Главная | Каталог статей | Регистрация | Вход
Приветствую Вас Панк прохожий | RSS
Меню сайта
Категории каталога
Пурген [27]
Каматоzz [7]
Бытовые паразиты [2]
Оргазм Нострадамуса [5]
Йорш [4]
DISTEMPER [10]
F.P.G [16]
Мини-чат
Главная » Статьи » Аккорды » F.P.G

F.P.G-Бойцовский Клуб
ВТУПЛЕНИЕ:
 E5 G5
E|---------|
B|---------|
G|---------|
D|---------|
A|--2--5~--|
E|--0--3~--|
Потом бас:
 E5 G5 H5 G5
G|-----------------------------------|
D|-----------------------------------|
A|--7-77-77-7-77-77---------2--------|
E|------------------3-33-33---33-33--|
Оснвной рифф:
 E5 G5 H5 G5
E|-----------------------------------|
B|-----------------------------------|
G|-----------------------------------|
D|--9-99-99-9-99-99---------4--------|
A|--7-77-77-7-77-77-5-55-55-2-55-55--|
E|------------------3-33-33---33-33--|
КУПЛЕТ:
Теперь то же самое, но с palm mute:
 E5 G5 H5 G5
E|-----------------------------------|
B|-----------------------------------|
G|-----------------------------------|
D|--9-99-99-9-99-99---------4--------|
A|--7-77-77-7-77-77-5-55-55-2-55-55--|
E|------------------3-33-33---33-33--|
 E5 G5 H5 G5
Сломай себе ноги, сломай себе руки,
Разбей свою глову! Чем это хуже
Махрового быта, жиреющий скуки
И мысли о том, что кому-то ты нужен?
 C5 D5
E|-----------------------------------|
B|-----------------------------------|
G|-----------------------------------|
D|--5-55-55-5-55-55-7-77-77-7-77-77--|
A|--3-33-33-3-33-33-5-55-55-5-55-55--|
E|-----------------------------------|
 
 C5 D5
Посмотри на себя: на кого ты похож?
 H5
E|----------------------------------|
B|----------------------------------|
G|----------------------------------|
D|--4-44-44-4-44-44-4-44-44-4-44-4--|
A|--2-22-22-2-22-22-2-22-22-2-22-2--|
E|----------------------------------|
 H5
Ты жующий и гадящий труп!
ПРИПЕВ:
 E5 G5 H5 G5
E|-----------------------------------|
B|-----------------------------------|
G|-----------------------------------|
D|--9-99-99-9-99-99---------4--------|
A|--7-77-77-7-77-77-5-55-55-2-55-55--|
E|------------------3-33-33---33-33--|
Вступай в бойцовский клуб!
Вступай в бойцовский клуб!
КУПЛЕТ:
Пошли шефа на хуй, уволься с работы!
Устрой драку с первым же наглым прохожим!
Не парься, всех денег не заработать!
Не бойся, что будешь на них непохожим!
Посмотри им в глаза: что им нужно от жизни - 
Телевизор, тапочки, суп!
ПРИПЕВ:
Вступай в бойцовский клуб!
Вступай в бойцовский клуб!
СОЛО
ПРОИГРЫШ:
 pm pm pm pm pm pm pm pm
E|------------------------------------------------------|
B|------------------------------------------------------|
G|------------------------------------------------------|
D|-------------10-9--9-10-9-10-------------10-9--9-10---|
A|--9--9--9--9--8-7--7-8--7-8--9--9--9--9--8--7--7-8----|
E|--7--7--7--7-----------------7--7--7--7---------------|
 pm pm pm pm pm pm pm pm
E|------------------------------------------------------|
B|------------------------------------------------------|
G|------------------------------------------------------|
D|-------------10-9--9-10-9-10-------------10-9--9-7----|
A|--9--9--9--9--8-7--7-8--7-8--9--9--9--9--8--7--7-5----|
E|--7--7--7--7-----------------7--7--7--7---------------|
КУПЛЕТ (или как это называется?):
 E5 G5 H5
E|----------------------------|
B|----------------------------|
G|----------------------------|
D|--9-9-9-99------------------|
A|--7-7-7-77-5-5-5-9--9-9-9---|
E|-----------3-3-3-7--7-7-7---|
 E5 G5 H5 
Что ты знаешь о жизни, если не убивался?
Любовь - когда мертвое сердце не ведает
Ненависти? Без поражений с победами
Узнаешь ли себя, если ни разу не дрался?
 C5 D5
E|---------------------------|
B|---------------------------|
G|---------------------------|
D|--5--5-5-5-5--7--7-7-7-7---|
A|--3--3-3-3-3--5--5-5-5-5---|
E|---------------------------|
 C5 D5 
Поймешь ли ты смысл слова "нежность",
 
 H5
E|------------------|
B|------------------|
G|------------------|
D|--4--4-4-4-4-4-4--|
A|--2--2-2-2-2-2-2--|
E|------------------|
H5
Если никогда не был груб?
ПРИПЕВ:
Вступай в бойцовский клуб!
Категория: F.P.G | Добавил: pit (12.10.2008)
Просмотров: 337 | Рейтинг: 0.0/0 |
Всего комментариев: 0
Имя *:
Email *:
Код *:
Форма входа

Поиск
Друзья сайта


       
Статистика

Онлайн всего: 1
Гостей: 1
Пользователей: 0
Copyright MyCorp © 2019 Хостинг от uCoz