Вторник, 25.06.2019, 14:28
Главная | Каталог статей | Регистрация | Вход
Приветствую Вас Панк прохожий | RSS
Меню сайта
Категории каталога
Пурген [27]
Каматоzz [7]
Бытовые паразиты [2]
Оргазм Нострадамуса [5]
Йорш [4]
DISTEMPER [10]
F.P.G [16]
Мини-чат
Главная » Статьи » Аккорды » F.P.G

F.P.G.-Думай!
INTRO:
1|-----------------|----------------|----------------------|--2h-3h-2h-3-------
2|-------/8-7------|----------------|--------0-------------|--3----------------
3|----4-------7----|------/7-5------|------0---0-----------|--2----------------
4|--2-----------9--|----5-----------|----4-------4---5--7--|-------------------
5|-----------------|--3-------------|--2-------------3--5--|-------------------
6|-----------------|----------------|----------------------|-------------------

1|-----------------|----------------|--------------------|--(12)---------------
2|-------/8-7------|----------------|--------0-----------|---------(12)--------
3|----4-------7----|------/7-5------|------0---0---------|-----(12)------------
4|--2-----------9--|----5-----------|----4-------4-------|---------------------
5|-----------------|--3-------------|--2-----------------|---------------------
6|-----------------|----------------|--------------------|---------------------
Em C
Да, я знаю каким я бываю жестоким,
 Am
Как я слезиться глаза заставляю.
 D
Как я плюю в души тех, кто мне дорог,
 Em
Тех, кому меня так не хватает.
Как я порой беспощаден,
Как моё сердце к чужим мольбам глухо.
Я ни на что не надеюсь, я знаю
Как было бы глупо...
...думать обо мне лучше.
Иногда я бываю таким, самому тошно.
Отвратительно злым, высокомерным.
Я любое высокое чувство опошлю,
Я любому подонку послужил бы примером.
КАК можно быть таким гадом?
ХУЖЕ найти невозможно.
Видя в зеркале рожу нахала,
Я не понимаю как вообще можно...
...думать обо мне лучше.
Но ты...
E5 C5
Думай обо мне лучше! Лучше!
A5 D5
Пусть это будет неправда! Думай!
E5 C5
Я буду знать, что ты думаешь так,
A5 D5
И может быть стану действительно лучше!
Иногда я бываю особо циничным,
Готовым на всё в достижении цели.
Улыбаясь бесчувственно и методично
Убивать того, кого вижу в прицеле.
Но! Я всегда буду честен.
Отрава правды без ??? даже лучше.
Если мы будем вместе,
Нам никогда не будет скучно!
Это я тебе обещаю!!!
Я порву свою душу, чтоб укрыть твои плечи,
Вывернув наизнанку, чтоб тебе было мягче!
Я сделаю всё, всё чтоб тебе было легче,
Если увижу вдруг, что ты плачешь!
Понесу на руках, закрывая от ветра!
Я согрею тебя огнедышащим телом!
Не задумываясь, я взгляну в глаза смерти,
Если ты захочешь, чтоб я это сделал!
Думай обо мне лучше! Лучше!
Пусть это будет неправда! Думай!
Я буду знать, что ты думаешь так,
И может быть стану действительно лучше!
Думай обо мне лучше! Лучше!
Пусть это будет неправда! Думай!
Я буду знать, что ты думаешь так,
И может быть стану действительно лучше!
Может быть стану действительно лучше!
Может быть стану действительно лучше!
Думай обо мне!
Категория: F.P.G | Добавил: pit (12.10.2008)
Просмотров: 351 | Рейтинг: 0.0/0 |
Всего комментариев: 0
Имя *:
Email *:
Код *:
Форма входа

Поиск
Друзья сайта


       
Статистика

Онлайн всего: 1
Гостей: 1
Пользователей: 0
Copyright MyCorp © 2019 Хостинг от uCoz