Вторник, 25.06.2019, 14:29
Главная | Каталог статей | Регистрация | Вход
Приветствую Вас Панк прохожий | RSS
Меню сайта
Категории каталога
Пурген [27]
Каматоzz [7]
Бытовые паразиты [2]
Оргазм Нострадамуса [5]
Йорш [4]
DISTEMPER [10]
F.P.G [16]
Мини-чат
Главная » Статьи » Аккорды » F.P.G

F.P.G.-Милиция
Куплет:
 A5 A#5 G5 A#5
E||-----------------------------|-----------------------------|
B||-----------------------------|-----------------------------|
G||-----------------------------|-----------------------------|
D||-----------------------------|-----------------------------|
A||--7--7-7-7-7-7--7--7-7-7--7--|--8--8-8-8-8-8--5--5--8--8---|
E||--5--5-5-5-5-5--5--5-5-5--5--|--6--6-6-6-6-6--3--3--6--6---|
Припев: 
 D5 C5 
E||---------------------------|------------------------|
B||---------------------------|------------------------|
G||*--------------------------|-----------------------*|
D||*--7--7--7--7--7--7--7--7--|--7--7--7--7--5--------*|
A||---5--5--5--5--5--5--5--5--|--5--5--5--5--3---------|
E||---------------------------|------------------------|
ТЕКСТ:
Ты стойкий, ты сильный, ты очень крутой,
Ты - наш идеал, ты - всенародный герой,
Ты - наш покровитель, ты - гроза всей шпаны,
Ведь ты же защитник порядка страны!
Наша милиция нас бережет!
Наша милиция нас бережет!
Наша милиция нас бережет!
Наша милиция нас бережет!
Стойкий характер, трезвый расчет!
Чувства, эмоции - все это не в счет!
В любой ситуации ты всегда прав,
Ведь прав всегда тот, у кого больше прав! 
Наша милиция нас бережет!
Наша милиция нас бережет!
Наша милиция нас бережет!
Наша милиция нас бережет!
<СОЛО>
Ты можешь любого врага победить,
Ты можешь украсть, ты можешь убить!
А ..... ты растопчешь своим сапогом,
Тебе не нужен закон, ведь ты и есть сам закон!
Наша милиция нас бережет!
Наша милиция нас бережет!
Наша милиция нас бережет!
Наша милиция нас бережет!
Но ты поганый мент, и в этом вся твоя суть!
Ты не можешь уже изменить что-нибудь!
Ты злишься, услышав за спиною: "Свинья!"
Но ты же знаешь, что все ненавидят тебя!
Наша милиция нас бережет! Наша милиция нас бережет!
Наша милиция нас бережет! Наша милиция нас бережет!
Наша милиция нас бережет! Наша милиция нас бережет!
Наша милиция нас бережет! Наша милиция нас бережет!
Категория: F.P.G | Добавил: pit (12.10.2008)
Просмотров: 256 | Рейтинг: 0.0/0 |
Всего комментариев: 0
Имя *:
Email *:
Код *:
Форма входа

Поиск
Друзья сайта


       
Статистика

Онлайн всего: 1
Гостей: 1
Пользователей: 0
Copyright MyCorp © 2019 Хостинг от uCoz